  0
SECTION
  2
HEADER
  9
$ACADVER
  1
AC1009
  9
$INSBASE
 10
0.0
 20
0.0
 30
0.0
  9
$EXTMIN
 10
-0.0479736049286714
 20
0.015518209449386
 30
-0.0015258207003583
  9
$EXTMAX
 10
5.7216797081307504
 20
5.527221696599411
 30
0.0000000349246037
  9
$LIMMIN
 10
0.0
 20
0.0
  9
$LIMMAX
 10
12.0
 20
9.0
  9
$ORTHOMODE
 70
     0
  9
$REGENMODE
 70
     1
  9
$FILLMODE
 70
     1
  9
$QTEXTMODE
 70
     0
  9
$MIRRTEXT
 70
     0
  9
$DRAGMODE
 70
     2
  9
$LTSCALE
 40
1.0
  9
$OSMODE
 70
    37
  9
$ATTMODE
 70
     1
  9
$TEXTSIZE
 40
0.2
  9
$TRACEWID
 40
0.05
  9
$TEXTSTYLE
  7
STANDARD
  9
$CLAYER
  8
0
  9
$CELTYPE
  6
BYLAYER
  9
$CECOLOR
 62
   256
  9
$DIMSCALE
 40
1.0
  9
$DIMASZ
 40
0.18
  9
$DIMEXO
 40
0.0625
  9
$DIMDLI
 40
0.38
  9
$DIMRND
 40
0.0
  9
$DIMDLE
 40
0.0
  9
$DIMEXE
 40
0.18
  9
$DIMTP
 40
0.0
  9
$DIMTM
 40
0.0
  9
$DIMTXT
 40
0.18
  9
$DIMCEN
 40
0.09
  9
$DIMTSZ
 40
0.0
  9
$DIMTOL
 70
     0
  9
$DIMLIM
 70
     0
  9
$DIMTIH
 70
     1
  9
$DIMTOH
 70
     1
  9
$DIMSE1
 70
     0
  9
$DIMSE2
 70
     0
  9
$DIMTAD
 70
     0
  9
$DIMZIN
 70
     0
  9
$DIMBLK
  1

  9
$DIMASO
 70
     1
  9
$DIMSHO
 70
     1
  9
$DIMPOST
  1

  9
$DIMAPOST
  1

  9
$DIMALT
 70
     0
  9
$DIMALTD
 70
     2
  9
$DIMALTF
 40
25.399999999999999
  9
$DIMLFAC
 40
1.0
  9
$DIMTOFL
 70
     0
  9
$DIMTVP
 40
0.0
  9
$DIMTIX
 70
     0
  9
$DIMSOXD
 70
     0
  9
$DIMSAH
 70
     0
  9
$DIMBLK1
  1

  9
$DIMBLK2
  1

  9
$DIMSTYLE
  2
STANDARD
  9
$DIMCLRD
 70
     0
  9
$DIMCLRE
 70
     0
  9
$DIMCLRT
 70
     0
  9
$DIMTFAC
 40
1.0
  9
$DIMGAP
 40
0.09
  9
$LUNITS
 70
     2
  9
$LUPREC
 70
     4
  9
$SKETCHINC
 40
0.1
  9
$FILLETRAD
 40
0.0
  9
$AUNITS
 70
     0
  9
$AUPREC
 70
     0
  9
$MENU
  1
.
  9
$ELEVATION
 40
0.0
  9
$PELEVATION
 40
0.0
  9
$THICKNESS
 40
0.0
  9
$LIMCHECK
 70
     0
  9
$BLIPMODE
 70
     0
  9
$CHAMFERA
 40
0.0
  9
$CHAMFERB
 40
0.0
  9
$SKPOLY
 70
     0
  9
$TDCREATE
 40
2457047.8619711581
  9
$TDUPDATE
 40
2457047.867290081
  9
$TDINDWG
 40
0.0053196181
  9
$TDUSRTIMER
 40
0.0053196181
  9
$USRTIMER
 70
     1
  9
$ANGBASE
 50
0.0
  9
$ANGDIR
 70
     0
  9
$PDMODE
 70
     0
  9
$PDSIZE
 40
0.0
  9
$PLINEWID
 40
0.0
  9
$COORDS
 70
     1
  9
$SPLFRAME
 70
     0
  9
$SPLINETYPE
 70
     6
  9
$SPLINESEGS
 70
     8
  9
$ATTDIA
 70
     0
  9
$ATTREQ
 70
     1
  9
$HANDLING
 70
     1
  9
$HANDSEED
  5
14E
  9
$SURFTAB1
 70
     6
  9
$SURFTAB2
 70
     6
  9
$SURFTYPE
 70
     6
  9
$SURFU
 70
     6
  9
$SURFV
 70
     6
  9
$UCSNAME
  2

  9
$UCSORG
 10
0.0
 20
0.0
 30
0.0
  9
$UCSXDIR
 10
1.0
 20
0.0
 30
0.0
  9
$UCSYDIR
 10
0.0
 20
1.0
 30
0.0
  9
$PUCSNAME
  2

  9
$PUCSORG
 10
0.0
 20
0.0
 30
0.0
  9
$PUCSXDIR
 10
1.0
 20
0.0
 30
0.0
  9
$PUCSYDIR
 10
0.0
 20
1.0
 30
0.0
  9
$USERI1
 70
     0
  9
$USERI2
 70
     0
  9
$USERI3
 70
     0
  9
$USERI4
 70
     0
  9
$USERI5
 70
     0
  9
$USERR1
 40
0.0
  9
$USERR2
 40
0.0
  9
$USERR3
 40
0.0
  9
$USERR4
 40
0.0
  9
$USERR5
 40
0.0
  9
$WORLDVIEW
 70
     1
  9
$SHADEDGE
 70
     3
  9
$SHADEDIF
 70
    70
  9
$TILEMODE
 70
     1
  9
$MAXACTVP
 70
    64
  9
$PLIMCHECK
 70
     0
  9
$PEXTMIN
 10
0.0
 20
0.0
 30
0.0
  9
$PEXTMAX
 10
0.0
 20
0.0
 30
0.0
  9
$PLIMMIN
 10
0.0
 20
0.0
  9
$PLIMMAX
 10
12.0
 20
9.0
  9
$UNITMODE
 70
     0
  9
$VISRETAIN
 70
     1
  9
$PLINEGEN
 70
     0
  9
$PSLTSCALE
 70
     1
  0
ENDSEC
  0
SECTION
  2
TABLES
  0
TABLE
  2
VPORT
 70
     3
  0
VPORT
  2
*ACTIVE
 70
     0
 10
0.0
 20
0.0
 11
1.0
 21
1.0
 12
2.83685305160104
 22
2.771369953024398
 13
0.0
 23
0.0
 14
0.5
 24
0.5
 15
0.5
 25
0.5
 16
0.0
 26
0.0
 36
1.0
 17
0.0
 27
0.0
 37
0.0
 40
5.5773190048541919
 41
2.5288270377733588
 42
50.0
 43
0.0
 44
0.0
 50
0.0
 51
0.0
 71
     0
 72
  1000
 73
     1
 74
     3
 75
     0
 76
     0
 77
     0
 78
     0
  0
ENDTAB
  0
TABLE
  2
LTYPE
 70
     2
  0
LTYPE
  2
CONTINUOUS
 70
     0
  3
Solid line
 72
    65
 73
     0
 40
0.0
  0
LTYPE
  2
ACAD_ISO02W100
 70
     0
  3
ISO dash __ __ __ __ __ __ __ __ __ __ __ __ __
 72
    65
 73
     2
 40
15.0
 49
12.0
 49
-3.0
  0
ENDTAB
  0
TABLE
  2
LAYER
 70
     3
  0
LAYER
  2
0
 70
     0
 62
     7
  6
CONTINUOUS
  0
ENDTAB
  0
TABLE
  2
STYLE
 70
     1
  0
STYLE
  2
STANDARD
 70
     0
 40
0.0
 41
1.0
 50
0.0
 71
     0
 42
0.2
  3
txt
  4

  0
ENDTAB
  0
TABLE
  2
VIEW
 70
     0
  0
ENDTAB
  0
TABLE
  2
UCS
 70
     0
  0
ENDTAB
  0
TABLE
  2
APPID
 70
     1
  0
APPID
  2
ACAD
 70
     0
  0
ENDTAB
  0
TABLE
  2
DIMSTYLE
 70
     1
  0
DIMSTYLE
  2
STANDARD
 70
     0
  3

  4

  5

  6

  7

 40
1.0
 41
0.18
 42
0.0625
 43
0.38
 44
0.18
 45
0.0
 46
0.0
 47
0.0
 48
0.0
140
0.18
141
0.09
142
0.0
143
25.399999999999999
144
1.0
145
0.0
146
1.0
147
0.09
 71
     0
 72
     0
 73
     1
 74
     1
 75
     0
 76
     0
 77
     0
 78
     0
170
     0
171
     2
172
     0
173
     0
174
     0
175
     0
176
     0
177
     0
178
     0
  0
ENDTAB
  0
ENDSEC
  0
SECTION
  2
BLOCKS
  0
BLOCK
  8
0
  2
$MODEL_SPACE
 70
     0
 10
0.0
 20
0.0
 30
0.0
  3
$MODEL_SPACE
  1

  0
ENDBLK
  5
21
  8
0
  0
BLOCK
 67
     1
  8
0
  2
$PAPER_SPACE
 70
     0
 10
0.0
 20
0.0
 30
0.0
  3
$PAPER_SPACE
  1

  0
ENDBLK
  5
5B
 67
     1
  8
0
  0
ENDSEC
  0
SECTION
  2
ENTITIES
  0
CIRCLE
  5
101
  8
0
 10
1.6670093033194759
 20
4.5710379490221786
 30
0.0
 40
0.125
  0
ARC
  5
102
  8
0
 10
1.6670093033194759
 20
4.5710379490221786
 30
0.0
 40
0.375
 50
27.342058964357062
 51
205.29231007600271
  0
LINE
  5
103
  8
0
 10
2.0247741151191798
 20
2.697223363420326
 30
0.0
 11
1.3279568411431759
 21
4.4108242545632219
 31
0.0
  0
CIRCLE
  5
105
  8
0
 10
2.732886879869052
 20
2.3153729889945138
 30
0.0
 40
0.125
  0
ARC
  5
106
  8
0
 10
2.732886879869052
 20
2.3153729889945138
 30
0.0
 40
0.5
 50
330.48997664278693
 51
27.342058964357062
  0
CIRCLE
  5
107
  8
0
 10
1.8584449528598921
 20
0.5166647535409439
 30
0.0
 40
0.125
  0
ARC
  5
108
  8
0
 10
1.8584449528598921
 20
0.5166647535409439
 30
0.0
 40
0.375
 50
157.656620039731
 51
330.48997664278659
  0
LINE
  5
10C
  8
0
 10
2.0001144209110961
 20
4.7432760999477921
 30
0.0
 11
3.1770270366578801
 21
2.5450238568953321
 31
0.0
  0
LINE
  5
10D
  8
0
 10
3.1680216487471329
 20
2.0690850824432241
 30
0.0
 11
2.1847960295184552
 21
0.3319488236274757
 31
0.0
  0
LINE
  5
10E
  8
0
 10
1.5115991435370559
 20
0.6592234591859745
 30
0.0
 11
2.0308266069651628
 21
1.922505620457817
 31
0.0
  0
ARC
  5
10F
  8
0
 10
1.105904448770928
 20
2.3026621688445559
 30
0.0
 40
1.0
 50
337.6566200397308
 51
23.238609703994371
  0
ARC
  5
111
  8
0
 10
2.3165911250480171
 20
2.2989133909194019
 30
0.0
 40
1.0
 50
337.6566200397308
 51
23.501525416660112
  0
ARC
  5
112
  8
0
 10
-0.1059337893548307
 20
2.302662168844555
 30
0.0
 40
1.0
 50
337.6566200397308
 51
23.238609703994371
  0
LINE
  5
113
  8
0
 10
0.8129358769934214
 20
2.697223363420326
 30
0.0
 11
0.1161186030174175
 21
4.4108242545632219
 31
0.0
  0
LINE
  5
114
  8
0
 10
0.2997609054112988
 20
0.6592234591859727
 30
0.0
 11
0.8189883688394061
 21
1.9225056204578139
 31
0.0
  0
LINE
  5
115
  8
0
 10
1.9561834106213789
 20
2.0690850824432201
 30
0.0
 11
0.9729577913926998
 21
0.3319488236274726
 31
0.0
  0
LINE
  5
116
  8
0
 10
0.7882761827853387
 20
4.7432760999477912
 30
0.0
 11
1.965188798532123
 21
2.5450238568953321
 31
0.0
  0
LINE
  5
117
  8
0
 10
3.3970235084069471
 20
0.3319488236274757
 30
0.0
 11
4.3802491276356248
 21
2.0690850824432232
 31
0.0
  0
LINE
  5
118
  8
0
 10
2.7238266224255461
 20
0.659223459185975
 30
0.0
 11
3.2415132832422531
 21
1.9187568425326631
 31
0.0
  0
LINE
  5
119
  8
0
 10
2.3195112563557561
 20
4.8782526298402784
 30
0.0
 11
3.233640582995077
 21
2.6976868750918208
 31
0.0
  0
LINE
  5
11A
  8
0
 10
2.9972849939123618
 20
5.1985235218556074
 30
0.0
 11
4.3902879465261586
 21
2.543014102928753
 31
0.0
  0
ARC
  5
11B
  8
0
 10
0.6466067147341335
 20
0.5166647535409439
 30
0.0
 40
0.375
 50
157.656620039731
 51
330.48997664278659
  0
CIRCLE
  5
11C
  8
0
 10
0.6466067147341335
 20
0.5166647535409439
 30
0.0
 40
0.125
  0
ARC
  5
11D
  8
0
 10
0.4551710651937189
 20
4.5710379490221769
 30
0.0
 40
0.375
 50
27.342058964357062
 51
205.29231007600271
  0
CIRCLE
  5
11E
  8
0
 10
0.4551710651937189
 20
4.5710379490221769
 30
0.0
 40
0.125
  0
ARC
  5
11F
  8
0
 10
1.5210486417432949
 20
2.3153729889945152
 30
0.0
 40
0.5
 50
330.48997664278693
 51
27.342058964357062
  0
CIRCLE
  5
120
  8
0
 10
1.5210486417432949
 20
2.3153729889945152
 30
0.0
 40
0.125
  0
CIRCLE
  5
121
  8
0
 10
3.945114358757543
 20
2.3153729889945178
 30
0.0
 40
0.125
  0
ARC
  5
122
  8
0
 10
3.945114358757543
 20
2.3153729889945178
 30
0.0
 40
0.5
 50
330.48997664278693
 51
27.083094735318038
  0
CIRCLE
  5
123
  8
0
 10
2.663404803085899
 20
5.0277926864049318
 30
0.0
 40
0.125
  0
ARC
  5
124
  8
0
 10
2.663404803085899
 20
5.0277926864049318
 30
0.0
 40
0.375
 50
27.083094735318038
 51
203.5015254166602
  0
CIRCLE
  5
125
  8
0
 10
3.070672431748382
 20
0.5166647535409439
 30
0.0
 40
0.125
  0
ARC
  5
126
  8
0
 10
3.070672431748382
 20
0.5166647535409439
 30
0.0
 40
0.375
 50
157.65662003973091
 51
330.48997664278721
  0
ARC
  5
12E
  8
0
 10
3.9342983410118051
 20
5.0277926864049327
 30
0.0
 40
0.375
 50
27.083094735318038
 51
203.5015254166602
  0
CIRCLE
  5
12F
  8
0
 10
3.9342983410118051
 20
5.0277926864049327
 30
0.0
 40
0.125
  0
LINE
  5
130
  8
0
 10
4.2681785318382692
 20
5.1985235218556092
 30
0.0
 11
5.661181484452066
 21
2.5430141029287539
 31
0.0
  0
LINE
  5
131
  8
0
 10
3.5904047942816621
 20
4.8782526298402766
 30
0.0
 11
4.504534120920983
 21
2.6976868750918199
 31
0.0
  0
ARC
  5
132
  8
0
 10
5.2160078966834478
 20
2.3153729889945192
 30
0.0
 40
0.5
 50
330.48997664278693
 51
27.083094735318038
  0
CIRCLE
  5
133
  8
0
 10
5.2160078966834478
 20
2.3153729889945192
 30
0.0
 40
0.125
  0
LINE
  5
134
  8
0
 10
3.9947201603514531
 20
0.659223459185975
 30
0.0
 11
4.5124068211681578
 21
1.918756842532664
 31
0.0
  0
LINE
  5
135
  8
0
 10
4.6679170463328523
 20
0.3319488236274766
 30
0.0
 11
5.6511426655615322
 21
2.0690850824432241
 31
0.0
  0
ARC
  5
136
  8
0
 10
3.5874846629739219
 20
2.2989133909194019
 30
0.0
 40
1.0
 50
337.6566200397308
 51
23.501525416660112
  0
ARC
  5
137
  8
0
 10
4.3415659696742877
 20
0.5166647535409444
 30
0.0
 40
0.375
 50
157.65662003973091
 51
330.48997664278721
  0
CIRCLE
  5
138
  8
0
 10
4.3415659696742877
 20
0.5166647535409444
 30
0.0
 40
0.125
  0
ENDSEC
  0
EOF
